Подсмотренные Аккорды  /  Про Дебила Пишите письма

Про Дебила

Про дебила, но совсем не для дебилов. Даже Рибо не смог сразу выучить.
Проигрыш: 1)-------------------------------------------------------------5--2-| 2)-3--2--3-----------3--2--3--2--3-----------3-2--2-2-2-2-2-2--4--1-| 3)-3--2--3--3-5-3----3--2--3--2--3--3-5-3----3-2--3-2-3-2-3-2--5--2-|- 2 раза 4)----------------5-----------------------5--3-2--2-2-2-2-2-2--4--1-| 5)------------------------------------------------------------------| 6)-3--2--3-----------3--2--3--2--3----------------------------------| Затем: Cm Cm7* D#m7* D7 Поется что-то вроде: "Фа-ра фа-фа фа-ра фа-фа фа-ду-дай и тэ-де и тэ-пэ"
Gm6add9 Полюбила с горя дебила я D7* D/G Полюбила любила любила любила я Gm6add9 За окном луна морда белая D7* D/G У коня гудок у меня свисток залетела я Cm Cm7* D#m7* D Ты-ды-ты-ды-ты летела, летела, летела
Под окном моря где огни горят Не они горят, это дни мои горькие дни горят Надо мной стезя там где пить нельзя Там где есть нельзя, там где спать нельзя там где жить нельзя Проигрыш до упора. Упор не должен наступить слишком рано.
Cm7*
    3
  1)-|--1--|-----|-----|- 
  2)-|-----|--2--|-----|-  
  3)-|--1--|-----|-----|-  
  4)-|-----|-----|--3--|-  
  5)-|--1--|-----|-----|- 
  6)-|-----|-----|-----|-x 
D#m7*
     6
  1)-|--1--|-----|-----|- 
  2)-|-----|--2--|-----|-  
  3)-|--1--|-----|-----|-  
  4)-|-----|-----|--3--|-  
  5)-|--1--|-----|-----|- 
  6)-|-----|-----|-----|-x 
D7
    5
  1)-|--1--|-----|-----|- 
  2)-|-----|-----|--4--|-  
  3)-|--1--|-----|-----|-  
  4)-|-----|-----|--3--|-  
  5)-|--1--|-----|-----|- 
  6)-|-----|-----|-----|-x 
D7*
    3  
  1)-|-----|-----|-----|- 
  2)-|-----|-----|-----|-  
  3)-|-----|-----|--3--|-  
  4)-|-----|--1--|-----|-  
  5)-|-----|-----|-----|- 
  6)-|-----|-----|--2--|- 
D/G
  1)-|-----|--3--|-----|- 
  2)-|-----|-----|--4--|-  
  3)-|-----|--2--|-----|-  
  4)-|-----|-----|-----|-  
  5)-|-----|-----|-----|- 
  6)-|-----|--1--|-----|- 
Видео

Проигрыш  (2,3 Мб.)