Подсмотренные Аккорды  /  Зимы не будет Пишите письма

Зимы не будет

Вот мы и добрались до по-настоящему хитрых песенок, дорогие мои детишечки.

При подборе ни один Фёдоров не пострадал.

Gm(*)
  1)-|---|---|---|-  
  2)-|---|---|-3-|-
  3)-|---|---|-2-|-
  4)0|---|---|---|- 
  5)-|---|---|---|- 
  6)-|---|---|-1-|-

       I  II   III
D7(*)
  1)-|---|---|---|-  
  2)-|---|---|-4-|-
  3)-|---|-2-|---|-
  4)0|---|---|---|- 
  5)-|---|---|---|- 
  6)-|---|-1-|---|-

       I  II   III
D7(2)
  1)-|---|---|-4-|-  
  2)0|---|---|---|-
  3)-|---|---|-3-|-
  4)-|---|-1-|---|- 
  5)0|---|---|---|- 
  6)-|---|---|-2-|-

      III  IV   V
Gm(*) D7(*) Gm(*) D7(*) 
А  а   а, зимы не будет
Gm(*) D7(*) Gm(*) D7(*)  D7(2)
А  а  а, тебя он любит,   о
D7(*)
Потому и нет его

А-а-а, о том и пела
А-а-а, а жизнь летела, о
Потому и нет его

Cm(III) 
А-а-а, одно и то же
А-а-а, не может, может
D#m(VI) 
А-а-а, кого, чего
D7(*)
Потому и нет его

(Да, такое тоже бывало!)

А вот здесь, дорогие мои детишечки, вы можете офигенно выпендриться и сыграть солячок, который для вас подобрал добрый дяденька Sun Ra.
(Фёдоров играет почти так же)

                                               
   Gm  D7(*) Gm    D7(*)  Gm  D7(*) Gm    D7(*)    D7(2)
1)-----------------------------------------------
2)-----------------------------------3--1--------
3)----3-2-----3--2----------3-2------------2-3---
4)--------4---------4-5---------4----------------
5)-----------------------------------------------
6)-3--------3------------3---------3-------------

   D7(*)                                               
1)-------------------------
2)-------------------------
3)-2--3--5--7--8--7--5--2--
4)-------------------------
5)-------------------------
6)-2--3--5--7--8--7--5--2--

(Называйте его просто - Гуру!)
Видео

Здесь ничего не видно, кроме того, что Фёдоров - фанерщик  (3,33 Мб.)