Подсмотренные Аккорды  /  Седьмой Пишите письма

Седьмой

0111, 0111 отвечай, 0111, я тебя не слышу (в двоичном коде)

Em(*)
1)0|---|---|---
2)-|---|-2-|---
3)0|---|---|---
4)-|---|---|-3- 
5)-|-1-|---|--- 
6)-|---|---|---

    VII VIII IX
Cm(*)
1)0|---|---|---
2)-|---|-2-|---
3)0|---|---|---
4)-|---|---|-3- 
5)-|-1-|---|--- 
6)-|---|---|---

    III IV   V
Hm(*)
1)0|---|---|---
2)-|---|-2-|---
3)0|---|---|---
4)-|---|---|-3- 
5)-|-1-|---|--- 
6)-|---|---|---

    II  III  IV
H7(*)
1)0|---|---|---
2)-|---|---|-4-
3)0|---|---|---
4)-|---|---|-3- 
5)-|-1-|---|--- 
6)-|---|---|---

    II  III  IV
Em(*)        Cm(*)             Hm(*)           H7(*)
Седьмой, седьмой, отвечай, седьмой, я тебя не слышу
За окном чужой, но встал герой и вышел

У волка ночь, у героя меч, за горам Волга, холод за спиной
Никого не жалко, ничего надолго

  C          Em
Где-е-е-е-е ещё
Кто-о-о-о-о ещё,
Я-а-а-а-а ещё

                                Hm(*)  H7(*)
1)---------------------------
2)----------8--7--5----------
3)-------4-----------4-------
4)----5-----------------5----
5)-7-----------------------7-
6)---------------------------

Труба зовёт, герой идёт, звенит кольчуга Только злится вьюга и ветер гонит прочь Не уйти намного, не найти друг друга День как день, ночь как ночь Где ещё Кто ещё Я ещё Hm Em Седьмой, седьмой, не надо бы Седьмой, седьмой, а может быть Седьмой, седьмой, а если бы Седьмой, седьмой, ну если бы Hm(*) H7(*) Надо бы, надо бы Em(*) Cm(*) Hm(*) H7(*) Em(*) Cm(*) Hm(*) H7(*) Если бы я - а, оо, если бы я
Видео

Вступление  (2,00 Мб.)