Подсмотренные Аккорды  /  Ещё не поздно Пишите письма

Ещё не поздно

Товарищ! Взял аккорд - не забудь положить на место, Фёдоров волнуется.

Песня о потере девственности.

Am7+
  1)-|-1-|---|---|- 
  2)-|-1-|---|---|-
  3)-|-1-|---|---|-
  4)-|-1-|-2-|---|- 
  5)-|-1-|---|-3-|-  
  6)-|-1-|---|---|-
       V   VI  VII
Am7
  1)-|-1-|---|---|-
  2)-|-1-|---|---|-  
  3)-|-1-|---|---|-
  4)-|-1-|---|---|- 
  5)-|-1-|---|-3-|- 
  6)-|-1-|---|---|-
       V   VI  VII
D7(*)
  1)-|---|---|-4-|-
  2)0|---|---|---|-
  3)-|---|---|-3-|-
  4)-|---|-1-|---|- 
  5)0|---|---|---|- 
  6)-|---|---|-2-|-  
      III IV   V
G(*)
  1)-|---|---|---|- 
  2)0|---|---|---|-  
  3)-|---|-3-|---|-
  4)-|-2-|---|---|- 
  5)-|---|---|-4-|- 
  6)-|---|---|---|-
      III  IV  V
        Am(V)            Am7+ 
Ещё не поздно, день уже прожит
          Am7            D7(*) 
Войди, прохожий, я тебе верю
        G(*)           E
Cдирая кожу, входит луна
        Am(V)   Am7+
В узкие двери
        Am7        D7(*)   G(*)
Что-то поёт чей-то голос
              E             Am(V)  Am7+
Бьётся в стекло, тонет в стекле
        Am7      D7(*)   G(*)
Разорвалось, раскололось
          E
Кто-то зовёт меня

Вокализы и второй куплет - на той же последовательности аккордов.

Ещё не поздно, нас уже двое
За дверью воет, мы ещё целы
Над полем боя светит луна,
Скушно быть смелым

Тут вашему вниманию предлагается очередной гнилой плод творчества народов крайнего Севера - попытка подбора соло из этой песни. Подбор мой, за ошибки претензии предъявлять Фёдорову.

                                               
1)--------------------------------
2)--5-----------------------------
3)-----5--4--------5-----7--5--4-- x 2 раза
4)-----------6--7-----7----------- 
5)--------------------------------
6)--------------------------------
                                               
1)-----------------------------------
2)-6--5--3-------6--5--3-----3----5--
3)----------5--4---------------------
4)------------------------6-----6----
5)-----------------------------------
6)-----------------------------------
Видео

Видео  (4,21 Мб.) сомнительного качества: ничего толком не видно, но интересно.