Подсмотренные Аккорды  /  Первое Мая Пишите письма

Первое Мая

К этой песне у нас очень нежное отношение. Эх, как её исполнял Фёдоров в ДК "Ленсовета"! Эх, как шипела сидевшая слева от меня бабка! Эх, как танцевали перед камрадом сумасшедшие! Эх!
Вступление: Am/F  G6  Am/F  G6

Am/F               G6
За окном ненастный день
Am/F                       G6
И столько туч, что не поверить
Am/F  G6            Dadd9       Dmadd9
И прогнать бы их да лень
Am/F  G6         Dadd9       Dmadd9
И поклон врагу отмерить 


         Am/F  G6
  Первое мая, о-о
         Am/F  G6
  Первое мая, о-о-о
         Am/F  G6      Dadd9     Dmadd9
  Первое мая, о-о

      Настроенье как беда
      И все равно, что дождь что ясно
      Лишь промчались холода
      Ерунда, ведь все напрасно

  Первое мая, о-о
  Первое мая, о-о-о
  Первое мая, о-о

Можно повторить 1 куплет. А можно и не повторять.

Am/F
  1)-|-----|-----|-----|-  
  2)-|--1--|-----|-----|-  
  3)-|-----|--2--|-----|-  
  4)-|-----|-----|--3--|-  
  5)-|-----|-----|-----|-x 
  6)-|-----|-----|-----|-x 
G6
    3
  1)-|-----|-----|-----|-  
  2)-|--1--|-----|-----|-  
  3)-|-----|--2--|-----|-  
  4)-|-----|-----|--3--|-  
  5)-|-----|-----|-----|-x 
  6)-|-----|-----|-----|-x 
Dadd9
    2
  1)-|-----|-----|-----|-  
  2)-|-----|--2--|-----|-  
  3)-|--1--|-----|-----|-  
  4)-|-----|-----|--3--|-  
  5)-|-----|-----|-----|-
  6)-|-----|-----|-----|-x 
Dmadd9
  1)-|-----|-----|-----|-  
  2)-|-----|-----|--3--|-  
  3)-|-----|--1--|-----|-  
  4)-|-----|-----|--2--|-  
  5)-|-----|-----|-----|- 
  6)-|-----|-----|-----|-x