Подсмотренные Аккорды  /  Жидоголонога Пишите письма

Жидоголонога

Gm(f)

  1)-|-----|-----|-----|-  
  2)-|-----|-----|--3--|-  
  3)-|-----|-----|--2--|-  
  4)-|-----|-----|-----|-  
  5)-|-----|-----|-----|-x  
  6)-|-----|-----|--1--|-  
D(f)  

  1)-|-----|-----|-----|-  
  2)-|-----|-----|--4--|-  
  3)-|-----|--2--|-----|-  
  4)-|-----|-----|-----|-  
  5)-|-----|-----|-----|-  
  6)-|-----|--1--|-----|-  
D#(f)
      2
  1)-|-----|--2--|-----|-  
  2)-|-----|-----|--3--|-  
  3)-|-----|-----|-----|-  
  4)-|-----|-----|-----|-x  
  5)-|-----|--1--|-----|-  
  6)-|-----|-----|-----|-  
Dm(f) 

  1)-|-----|-----|-----|-  
  2)-|-----|-----|--4--|-  
  3)-|-----|--2--|-----|-  
  4)-|-----|-----|-----|-  
  5)-|-----|-----|-----|-  
  6)-|--1--|-----|-----|-  
D2(f)

  1)-|-----|--3--|-----|-  
  2)-|-----|-----|-----|-  
  3)-|-----|--2--|-----|-  
  4)-|-----|-----|-----|-  
  5)-|-----|-----|-----|-  
  6)-|-----|--1--|-----|-  
D#2(f) 

  1)-|-----|-----|-----|-  
  2)-|-----|--1--|-----|-  
  3)-|-----|-----|--2--|-  
  4)-|-----|-----|-----|-  
  5)-|-----|-----|-----|-  
  6)-|-----|-----|-----|-  
D3(f) 
      4
  1)-|-----|-----|-----|-x
  2)-|--1--|-----|-----|-
  3)-|-----|--2--|-----|-
  4)-|-----|-----|-----|-
  5)-|-----|-----|-----|-
  6)-|-----|-----|-----|- 

<!-- Юра, здесь нужен текст (килобайт на 5) о том, как непросто это сыграть... -->
<!-- Лёша, извини, что-то ничего не приходит в голову.-->

Gm(f) D(f)                  Gm(f)    D#(f)   D                      Gm(f)
Тенью сокола тихо    ходит около    ж  и  д  о  г  о  л  о  н  о  г  а

Солнце наголо беголо    да и плаколо    зага-зага

Dm(f)     A7       Dm(f)     A7 
Солнце - часики    загибай колёсики

Dm(f)     A7       F        D2(f)
Тенью сокола       лебедем дым

        Gm(f) D(f)                     Gm(f)     D#(f)   D           Gm(f)
И только там и около    пела    тенью сокола     жи     вым    не живым

Gm(f)            D#2(f)  ->  D3(f)            
Фа  -  фа        фа  -  ба  -  дам 
Видео

Посмотреть  (3,85 Мб.)