Подсмотренные Аккорды  /  Голова-нога Пишите письма

Голова-нога

Раскрываются проблемы головоногих во всём блеске.

Riff1
1)------------------------|------------|
2)------------------------|------------|
3)------------------------|------------| 
4)------------------------|------------| 
5)-0--1--0--1--0--1--0--1-|------------| 
6)-3--0--3--0--3--0--3--0-|-3--4--3----| 
                            (только в конце строчки)
H7
1)-|---|---|-
2)-|---|---|-
3)-|---|-3-|-
4)-|-1-|---|- 
5)0|---|---|- 
6)-|---|-2-|-

     I  II
C7(*)
1)-|---|---|---
2)-|---|---|---
3)-|---|---|-3-
4)-|---|-1-|--- 
5)0|---|---|--- 
6)-|---|---|-2-

     I  II   III
Em(*)
1)-|---|---|---
2)-|---|---|---
3)-|---|---|---
4)-|---|---|-4- 
5)-|---|-2-|--- 
6)-|-1-|---|---

     I  II   III
Riff2
H7     H7     H7     H7 C7(*) H7
Riff1 
Губы одна к другой прилипли
Чтобы зубы изо рта не выпали
Замотал ресницы, связал
Чтобы не вывалились глаза

Riff2
Из окна навеки железный гон
Бросишь руку, вспомнит, вернёт сама
Взял, одел, пошёл и сошёл с ума
Ни один не ворон со всех сторон

Riff1
Я иду дышу я иду дышу я  иду  ды
В голове на ходу образовываются ходы
Замотал, запутал, залепил завязал
Вцепился в последнее, чтобы не падал.

Riff2
Думать думать держать держать ходить ходить
Очень хочется жить, хочется жить
Ни один не ворон со всех сторон

Em                       Em(*) Em
Я иду дышу я иду дышу я  иду  ды
В голове на ходу образовываются ходы
Riff2
Голова-нога, голова-нога
Голова-нога, голова-нога

Riff1 
Я уже, похоже, не могу молчать
От молчания лопается кожа на плечах
Забываю знакомые имена
Ощущение под превращается в ощущение на


Em                       Em(*) Em
Я иду дышу я иду дышу я  иду  ды
Я иду дышу я иду дышу я  иду  ды
Riff2
Голова-нога, голова-нога
Голова-нога, голова-нога

Далее идёт немыслимый фрагмент ("ЗАГА!!!"), который вам всё равно повторить не удастся.

Em, G, H7 и риффы в любой желаемой последовательности (музыка не терпит прямолинейности, друзья)

Видео

Видео такое страшное, что тут его нет  (0,00 Мб.)      Верьте нам на слово.