Подсмотренные Аккорды  /  Далеко Пишите письма

Далеко

Красивая и несложная песня. Правда, несложная она в игре, а красивая в исполнении Фёдорова.

Мы видели много разных вариантов аккордов к ней, и многие из них звучали вполне убедительно. Тем не менее, вариант автора нам почему-то понравился больше всего.

Играется на гитаре.

 Gf
      3
  1)-|-----|-----|-----|-x  
  2)-|-----|--2--|-----|-  
  3)-|-----|-----|--3--|-  
  4)-|-----|-----|-----|-  
  5)-|-----|-----|-----|-x 
  6)-|-----|--1--|-----|-  
 Df  
      
  1)-|-----|-----|-----|-x  
  2)-|-----|-----|--3--|-  
  3)-|-----|--2--|-----|-  
  4)-|-----|-----|-----|-  
  5)-|-----|-----|-----|-x 
  6)-|-----|--1--|-----|-  
 H7f 

  1)-|-----|-----|-----|-x  
  2)-|-----|-----|-----|-  
  3)-|-----|--3--|-----|-  
  4)-|--1--|-----|-----|-  
  5)-|-----|-----|-----|-x
  6)-|-----|--2--|-----|-  

Первая и пятая струны по возможности не звучат.

   Gf       Df            Em             H7f
Далеко, далеко ли, далёко.   Одиноко ли, ой, одиноко...

Gf       H7(2)   Em        H7f
   Не жалей его,     не жалей...

   Gf       Df            Em             H7f
Недоплохо ему не до смеха, и уехал - опять не уехал...

Gf       H7(2)   Em        H7f
   Сон недопокой его ничей...

  H7f
Падал на...


Riff1
  5)-----------0--
  6)--2--3--5--0--

Припев:

Gf Df Em E Esus4 E Солнце в губы крича... Am H7f Riff1 День от месяца... Gf Df Em E Esus4 E Нынче ключик - очаг Am H7f Поднебесица... Сладко стелет, Сядет у плеча Ночь от года ничья, Ночь от года ничья Далеко, далеко ли далече день от ночи ложится на плечи Не жалей его, не зови День от ночи, неделя от ночи. И не хочется, если не хочет. Сон недопокой его живи

Припев:

Дальше следует уход в себя под аккорды припева, и там случается второй рифф.

Riff2
                             H7f
  1)-------------------------   
  2)--------------3---5---0--
  3)--5---5---5--------------
  4)--5---5---5--------------
  5)-------------------------

Видео

Фрагментик  (4,20 Мб.)      Уход в себя со вторым риффом  (1,02 Mб.)