Подсмотренные Аккорды  /  Что-нибудь такое Пишите письма

Что-нибудь такое

Основной риф песни выглядит так:

Riff_1

    C#1 C#2 C#1 C#3 C#4 C#3 C#5 C#4
1)-----------------------------------|----------------------
2)---5-------5-----------------------|----------------------
3)-------6-----------6---------------|----------------------
4)---------------6-------6-------6---|----------------------
5)---------------------------7-------|---4---7---6---5---4--
6)-----------------------------------|----------------------
        Первая часть (a).                  Вторая часть (b).

Если его попытаться разложить на аккорды, то получим пять штук:

C#1
      4
  1)-|--1--|-----|-----|-  
  2)-|--1--|--2--|-----|-  
  3)-|--1--|-----|-----|-  
  4)-|--1--|-----|-----|-  
  5)-|--1--|-----|-----|-  
  6)-|-----|-----|-----|-  
C#2  
      4
  1)-|--1--|-----|-----|-  
  2)-|--1--|--2--|-----|-  
  3)-|--1--|-----|--3--|-  
  4)-|--1--|-----|-----|-  
  5)-|--1--|-----|-----|-  
  6)-|-----|-----|-----|-  
C#3
      4
  1)-|--1--|-----|-----|-  
  2)-|--1--|--2--|-----|-  
  3)-|--1--|-----|-----|-  
  4)-|--1--|-----|--3--|-  
  5)-|--1--|-----|-----|-  
  6)-|-----|-----|-----|-  
C#4 
      4
  1)-|--1--|-----|-----|-  
  2)-|--1--|--2--|-----|-  
  3)-|--1--|-----|--4--|-  
  4)-|--1--|-----|--3--|-  
  5)-|--1--|-----|-----|-  
  6)-|-----|-----|-----|-  
C#5 
      4
  1)-|--1--|-----|-----|-----|-  
  2)-|--1--|--2--|-----|-----|-  
  3)-|--1--|-----|-----|-----|-  
  4)-|--1--|-----|--3--|-----|-  
  5)-|--1--|-----|-----|--4--|-  
  6)-|-----|-----|-----|-----|-  

Во вступлении мы сначала два раза играем обе части первого риффа.

Теперь второй рифф, который вместе с первым образует основную мелодию песни.

Riff_2

1)------------------------------------------------------|----------------
2)--------------------2---2---1---2---------------------|-4---5---4------
3)---2---2---1---2----2---2---1---2---2---4---2---1---2-|-2---3---2---2--
4)---4---4---3---4----4---4---3---4---4---4---4---3---4-|-4---5---4---4--
5)------------------------------------------------------|----------------
6)------------------------------------------------------|----------------

До отмеченной части, всё играется двумя пальцами - средним и указательным. Указательный по совместительству зажимает вторую струну. Если этого не знать, можно долго удивляться, почему Фёдоров зажимает одни и те же струны, а звук получается разный.

Итак, песня:

Вступление: Riff_1(ab) Riff_1(ab) Riff_2 Riff_1(ab) Riff_1(ab)

Riff_1(a) C#m        F#m 
Голову    рукою  обернуть, а-а, нет тебе покоя

Riff_1(a) C#m         F#m
Там тебе чего-то не найти, а-а, что-то не вернуть

Riff_1(a)  C#m           F#m 
Здесь тебе никак не обмануть, а-а, что-нибудь такое

A7                    F#     Riff_3 
Ааa-аа-aa-aa а где-нибудь...

Небольшой третий рифф. Его в этом месте довольно непросто сыграть и можно опустить, но с ним, конечно, лучше.

Riff_3

  3)------------------5--  
  4)------6---4---4---4--  
  5)--------------6---6--  
  6)--4------------------  

И дальше либо пауза (как на 4.5т), либо сразу же без остановки Riff_1(a).

Вокализ: Riff_1(ab) Riff_1(ab) Riff_2 Riff_1(ab) Riff_1(ab)
Всё б тебе бродить по городам, а-а, лето золотое там

Тебе не вспомнить не забыть, а-а, что не знаешь сам

Здесь тебе никак не победить, а-а, что-нибудь такое

Ааa-аа-aa-aa а где-то там...

Вокализ: Riff_1(ab) Riff_1(ab) Riff_2 Riff_1(ab) Riff_1(ab)

Голову рукою  обернуть, а-а, нет тебе покоя

Всё тебе чего-то не найти, а-а, что-то не вернуть

Всё тебе никак не обмануть, а-а, что-нибудь такое

A7                  G#
Ааa-аа-aa-aa а где-нибудь...
        Riff_1(a)              F#m Fm F#m
Аааа как-нибудь а--на-на-на-а

C#m              F#m Fm F#m
Снова о-ооо-оо-оо
C#m         F#m Fm F#m
А-а-а-а-а-а
C#m   A     F    Fm   Riff_1(a)
Где - нибуууудь, ааа... 
Видео

Вступление  (3,65 Мб.)      Riff 3  (800 Кб.)      И концовка (3.34 Мб)