Зима (аккорды):

(Фёдоров/Озерский)
Альбомы: Бодун, Четыресполовинойтонны, Это - мама

*вступление на 4.5тоннах состоит из одиночного A7+

 Dm            A7+
То ли солнце мне не светит,
 Dm          A7+       Dm A7+ Dm A7+
То ли дети, то ли не дает.
То ли весел, то ли вечер, 
То ли ветер, то ли самолет.

 F            C
Как из тучи - я невезучий,
 Dm           A7+           Dm A7+ Dm A7+
Лето излечит, осень научит май...
 F          C  
Лето лечит, осень канючит,
Dm            A7+             Dm A7+ Dm A7+
Я невезучий, радость моя, прощай. 

C             Dm
Был бы я не светел,
Gm          A
Заварил бы зелье,
 C           Dm
Может, ты заметил -
Gm        A   A 
У меня веселье... 

Dm        Gm   Dm  Gm
У меня зима зимует,
Dm        Gm   Dm  Gm
У меня зима ворует,
 Dm        Gm   Dm  Gm
За меня зима целует,
Dm        Gm
У меня зима... 

То ли месяц в небе злится,
Мне не спится,
Значит не сезон.
То ли вьюга веселится, то ли птицы,
То ли полигон.

Я живучий, но невезучий,
Вьпадет случай, лето сведет с ума.
Лето лечит, осень канючит,
Я невезучий, 
Радость моя, зима. 

На моем оконце
Гнезда вьют метели,
У тебя есть солнце,
У меня веселье... 

У меня зима зимует,
У меня зима ворует,
За меня зима целует,
У меня зима... 

*дальнейшее отсутствует в версии с 4.5тонн

 Dm           Gm
То ли весел, то ли вечер,
 Dm           Gm        Dm Gm Dm Gm
То ли ветер, то ли самолет.   О-о...
То ли солнце мне не светит,
То ли дети, то ли не везет... 

---------------------------
Аккорды:

A7+: x-0-2-3-2-3 или x-0-5-6-5-6
Dm:  x-0-0-2-3-1 или x-0-7-7-6-5
F:   1-3-3-2-1-1
C:   3-3-2-0-1-0
Gm:  3-x-0-3-3-3
A:   x-0-2-2-2-0

после 2-го куплета проигрыш:

    Dm        Gm
E-|-5-5-5-5-5-3-|-
H-|-6-6-6-6-6-3-|-  (2x)
G-|-7-7-7-7-7-3-|-
D-|-----------5-|-

    Dm        Gm
E-|-5-5-5-5-8-3-|-
H-|-6-6-6-6-6-3-|-
G-|-7-7-7-7-7-3-|-
D-|-----------5-|-

    Dm        A
E-|-------------|-
H-|-6-6-6-6-6-5-|-
G-|-7-7-7-7-7-6-|-
D-|-------------|-

    Gm      A
E-|-----------|-
H-|-----3-5---|-
G-|---3-----6-|-
D-|-5---------|-

    Gm      A
E-|-----------|-
H-|-----3-5---|-
G-|---3-------|-
D-|-5-------7-|-

    Gm      Dm
E-|----------------------------------|-
H-|-----3-5-6-6-6-6-----6---6--------|-
G-|---3-------------7-7---7---5-3----|-
D-|-5--------------------------------|-
              (примерно, не уверен)

Бонус: видео 97 года.

К списку песен
© 2007-2017 v.silvansky