Ждать (аккорды):

Альбом: Девушки поют

Вступление:

    G          H7         G         H7
H-|---0----------0----------0-------------|-
G-|---0---------------------0------------4|-
D-|--------------1----------------0-1--4--|-
A-|--------0-1-2----2-1-0-----2-4---------|-
E-|-3----3----------------3---------------|-

далее вариации...

    G          H7         G         H7
H-|---0----------0----------0--------------|-
G-|---0---------------------0-------------4|-
D-|--------------1--------------------1-4--|-
A-|--------0-1-2----2-1-0-------0-1-2------|-
E-|-3----3----------------3---3------------|-

Долго не бывал
Где не был я
Не падал
Я был, не был
Над землёю
Над водою
Как-то, где-то
Как ты, где ты?
Как я буду?
Где я буду ждать?
Буду ждать.

 Там дам
 Холодам дам
 Так и с ним дым
 Под огнём дом
 Под огнём.
 Под огнём.

(тут играется соло)

Впереди и
Позади и
Здесь дожди и
Там дожди и
Здесь край света.
Как ты, где ты?
Сам, и ни кого
Здесь нету
Как я буду?
Где я буду ждать?
Буду ждать.

 Там дам
 Холодам дам
 Так и с ним дым
 Под огнём дом
 Под огнём.
 Под огнём.

---
соло:

в начале
    G                H7
E-|-----8p7--8p7---|-----8p7--8p7---|-
H-|-8-8----8----8--|---7----7----7--|-
G-|----------------|-8--------------|-

потом
    G                  H7
E-|-----7-8p7--8p7---|-----8p7--8p7---|-
H-|---8------8----8--|---7----7----7--|-
G-|-7----------------|-8--------------|-

и ещё в конце
    G                H7
E-|---7-8p7--8p7---|-----7-8--7--|-
H-|-8------8----8--|---7---------|-
G-|----------------|-8-----------|-

за точность не ручаюсь, но в целом так ;)

---------------
аккорды:

G:  3-2-0-0-0-x или 3-x-0-0-0-x или 3-5-5-4-x-x
H7: x-2-1-x-0-x или x-2-4-4-x-x

если уж играть в одну гитару, то можно играть более-менее полные
варианты этих аккордов, делая переходы по типу вступления.

К списку песен
© 2007-2017 v.silvansky