Возле меня (аккорды):

(Фёдоров/Озерский)
Альбом: Девушки поют

* играется Gm и Dm и напевается мелодия (табы в конце)
* иногда, впрочем, встревают A#7 и A
* затем продолжают играться эти аккорды, и речитатив:

Всё пропукал профукал
Теперь гуляй сокол
Да радуйся громче сука
Никого не осталось около
Раньше бы зараза плакал и хныкал
Пикал пипикал какакал
Холодно пусто хихикал
Плакал

* здесь пару раз опять поётся мелодия

Затюкал
Затюкал истыкал
Застукал
Плакал
Плакал
На кол!

* в этой части речитатива возможны импровизации

* сразу после речитатива начинаем петь:

   Gm          Dm
И ночь только тень его
   Gm          Dm
И тень только тень его
    Gm       Dm
И снег и следы
 Gm
После меня
 A#7
Возле меня

И я только тень его
Всю ночь только тень его
Весь день
Везде
Возле меня
После меня

---------------------------
аккорды:

Gm:  3-x-0-3-3-x
Dm:  1-x-0-2-3-x
A#7: x-1-4-1-4-x
A:   x-0-2-2-2-x

мелодия:

      Gm       Dm
E-|----------------10----|-
H-|-3/8--11-11-10-----10-|-

      Gm       Dm
E-|------10-10-10--12-10-|-
H-|-3/8------------------|-

      Gm       Dm
E-|----------------------|-
H-|-3/8-----3~/6---------|-

      Gm          A#7
E-|-12--13-12-10--12--13-12-10-|-
H-|----------------------------|-

в самом конце песни последние ноты несколько другие и играется A вместо A#7

вот какие там ноты, с завышением:

      Gm          A
E-|-12--13-12-10--12--17-15-12-|-
H-|----------------------------|-


К списку песен
© 2007-2017 v.silvansky