The Lamp (аккорды):

(Фёдоров/Гаркуша)
Альбом: Четыресполовинойтонны

Проигрыш:

E-|---2-2---------5-x-|---2-2---------5-7-|-
H-|---2-2---------4-x-|---2-2---------4-6-|-
G-|---2-2---------4-x-|---2-2---------4-6-|-
D-|---4-----------x---|---4-----------x-x-|-
A-|---4---2-3-4-0-----|---4---2-3-4-0-----|-
E-|-2-----------------|-2-----------------|-

E-|---2-2---------5-x-|---2-2---------0-0-|-
H-|---2-2---------4-x-|---2-2---------2-2-|-
G-|---2-2---------4-x-|---2-2---------2-x-|-
D-|---4-----------x---|---4-----------2-x-|-
A-|---4---2-3-4-0-----|---4---2-3-4-0-----|-
E-|-2-----------------|-2-----------------|-

F#m        E     F#m        A                     A
Я столько падал, я столько падал, столько же вставал,
           D       C#7*           F#m      C#7*
Хотелось крикнуть - мне твердят "Не стоит".
F#m     E     F#m     A                 A
На горизонте, на горизонте виден пьедестал,
         D      C#7*       F#m  C#7*
Который медного гроша не стоит.

 A              E                   F#m Hm7 C#m7
  Пусть каждый верит в то, что говорит,
 A        E           F#m  Hm7 C#m7
  Не осуждайте их напрасно,
 A              E        F#m
  Пусть лампа красная горит,
           D   A         F#m
  Всё для того, всё для того,
  Hm               H7   C#7*            F#m  + проигрыш
    Что жизнь прекрасна...   Жизнь прекрасна!

проигрыш.

Прекрасно всё, прекрасно всё и шторы на окне,
Удобны кресла и удобны позы
И только свечи, и только свечи тают на столе,
А мы все верим, но не ждём вопросов!

  Пусть каждый верит в то, что говорит,
  Не осуждайте их напрасно,
  Пусть лампа красная горит,
  Всё для того, всё для того,
    Что жизнь прекрасна... Жизнь прекрасна!

Проигрыш.

-------------------------
Аккорды:

F#m:   2-4-4-2-2-2
E:     0-2-2-1-0-0
A:     0-0-2-2-2-0
D:     x-0-0-2-3-2
C#7*:  0-4-3-4-2-0
Hm:    2-2-4-4-3-2
Hm7:   2-2-4-2-3-2
C#m7:  4-4-6-4-5-4
H7:    2-2-1-2-0-2

К списку песен
© 2007-2017 v.silvansky