Тетрадь (аккорды и табы):

(Фёдоров/Введенский)
Альбом: Весна

Размер: 5/4 (разбит на 3/4 + 2/4).

Табулатура на songsterr.com.

* Интро

Dm* Dm* A7* A7*   - 2x

Dm* Dm*

 Dm*             A7*
Море ты море ты родина волн,
 Dm*           A7*
волны это морские дети.
 F  D    Gm
Море их мать
       A#       A
и сестра их тетрадь,
 Dm**       C*    A*      A#*
вот уж в течение многих столетий
   Gm    Dm Gm  F A7
и жили они хорошо-о.
   Dm**    C*
И часто молились.
 A*  A#*
Море  Богу,
   Gm   Dm   Gm F A7
И дети Богу.

* Проигрыш

   Dm*           A7*
А после на небо переселились,
   Dm*            A7*
оттуда [оттуда] брызгали дождем
   F D      Gm        A#              A
и вырос [и вырос] на месте дождливом дом.
 Dm** C*  A*  A#*
Жил  дом хо-ро-шо.
  Gm      Dm    Gm      F A7
учил он двери и окна игра-ать,
   Dm** C*         A*  A#*  Gm          Dm
в бе---рег, в бессмер-ти-е, в сон, и в тетрадь.
Gm F  A7
Однажды.


* Теперь табы.

Интро и проигрыш:

     Dm*
G-|----------------------------------|-
D-|-----------2h-3-----------3h-2----|-
A-|--4h-5--x--------4h-5--x----------|-
E-|----------------------------------|-

     A7*
G-|----------------------------------|
D-|----------------------------------|
A-|-----------5h-4-----------4h-5----|
E-|--5h-6--x--------5h-6--x----------|


G-|--6h-7----------------------------|-----------|-
D-|--------6h-7----------------------|--------0--|-
A-|--------------7h-8--4h-5----------|-----------|-
E-|----------------------------------|--5h-6-----|-

Dm* и A7*: играем таб

    Dm*                           A7*
H-|-----------------------------|-2-2-2-2-2-----2-2-2-2-2-----|-
G-|-2-2-2-2-2-----2-2-2-2-2-----|-0-0-0-0-0-3-2-0-0-0-0-0-3-2-|-
D-|-0-0-0-0-0-3-2-0-0-0-0-0-3-2-|-0-0-0-0-0-0-0-0-0-0-0-0-0-0-|-
A-|-0-0-0-0-0-0-0-0-0-0-0-0-0-0-|-0-0-0-0-0-----0-0-0-0-0-----|-

В акустической версии в Dm* часто звучит "не в тон" открытая вторая струна

Финал:

Dm F  Am D E
Cm D# Gm C D

Dm

Табы для финала:


     Dm - 2x
H-|----------------------------------|-
G-|----------------------------------|-
D-|--0--x--x--2--3--0--x--x--2--3----|-
A-|----------------------------------|-

     F - 2x
H-|----------------------------------|-
G-|-----------0--2-----------0--2----|-
D-|--3--x--x--------3--x--x----------|-
A-|----------------------------------|-

     Am - 2x
H-|-----------0--1-----------0--1----|-
G-|--2--x--x--------2--x--x----------|-
D-|----------------------------------|-
A-|----------------------------------|-

     D - 1x
H-|-----------0--1-----------0--1----|-
G-|--2--x--x--------2--x--x----------|-
D-|----------------------------------|-
A-|----------------------------------|-

     E - 1x
H-|--0--x--x--1--3--0--x--x--1--3----|-
G-|----------------------------------|-
D-|----------------------------------|-
A-|----------------------------------|-

     Cm - 2x
H-|----------------------------------|-
G-|----------------------------------|-
D-|-----------0--1-----------0--1----|-
A-|--3--x--x--------3--x--x----------|-

     D# - 2x
H-|----------------------------------|-
G-|----------------------------------|-
D-|--1--x--x--3--5--1--x--x--3--5----|-
A-|----------------------------------|-

     Gm - 2x
H-|----------------------------------|-
G-|--0--x--x--2--3--0--x--x--2--3----|-
D-|----------------------------------|-
A-|----------------------------------|-

     C - 1x
H-|----------------------------------|-
G-|--0--x--x--2--3--0--x--x--2--3----|-
D-|----------------------------------|-
A-|----------------------------------|-

     D - 1x
H-|----------------------------------|
G-|--2--x--x--3--5--2--x--x--3--5----|
D-|----------------------------------|
A-|----------------------------------|

     Dm - 4x
H-|----------------------------------|-
G-|----------------------------------|-
D-|--0--x--x--2--3--0--x--x--2--3----|-
A-|----------------------------------|-

Бонус: видео на YouTube. На видео финал сыгран не полностью.
Так что варианты аккордов Cm, D# и C взяты "от балды", можно играть любые другие варианты.

--------
Аккорды:

F:    1-3-3-2-1-1
Dm*:  x-0-0-3-2-x
Gm:   3-x-0-3-3-x
A#:   6-x-x-7-6-x
A:    5-x-x-6-5-x
Dm**: 10-x-0-10-x-x
C#*:  8-x-0-9-x-x
A*:   5-x-0-6-x-x
A#*:  6-x-0-7-x-x
Dm:   1-x-0-3-2-x
A7:   x-0-2-0-2-x
Cm:   x-3-5-5-4-x
D#:   x-6-8-8-8-x
C:    3-3-2-0-1-x

К списку песен
© 2007-2017 v.silvansky