Спи солдат (аккорды):
(Фёдоров/Озерский)

Альбом: Птица

 F#m         D         Hm
Добрые люди не понимают,
  F#m
Правды не любят,
 D          Hm
Жизни не знают.
 Hm            G
Минные поля, злые поезда,
F#m          A5-G#5-G5-F#5
Спи, солдат.

D5          C#7
От темна и до темна
D5            C#7 F#m F#m
Стало все равно.
D5               C#7
А война... Ну, что война?
D5         C#7
Так заведено. 

А надо мною небо рекою,
Над головою небо - вода.
Там, за рекою, там заночую.
В небе журавли, в небе провода.
Спи, солдат 

От темна и до темна
Стало все равно.
А война... Ну, что война?
Так заведено. 

Жители улиц прячутся в щели,
Жадные двери знают куда.
Кто тебя слышит, кто тебе верит?
Спи, солдат. 

От темна и до темна
Переплетено... 
А война... Ну, что война?
Коль заведено!..

F#m Hm F#m Hm

----------------------
аккорды:

F#m: 2-4-4-2-2-2
D:   x-0-0-2-3-2
Hm:  x-2-4-4-3-2
G:   3-5-5-4-3-3
D5:  x-0-0-2-x-x
C#7: x-0-3-4-2-x

басовая партия

вступление:

    F#m
A-|------------------------------|-
E-|-2--2-2-5--5-5-2-2-2-5--5-5-0-|- - 3 раза

    F#m
A-|------------------------------|-
E-|-2--2-2-5--5-5-2-2-2-7--7-7-5-|-

на куплеты:

    F#m
A-|------------------------------|-
E-|-2--2-2-5--5-5-2-2-2-5--5-5-0-|-

    D             Hm
A-|--------5--5-5----------------|-
E-|-2--2-2--------2-2-2-7--7-7-5-|-

на "Минные поля..."

    Hm
A-|--------5--5-5-------5--5-5---|-
E-|-7--7-7--------7-7-7----------|-

    G
A-|--------5--5-5-------5--5-5-5-|-
E-|-3--3-3--------3-3-3----------|-

на "спи, солдат..."

    F#m
A-|------------------------------|-
E-|-2--2-2-5--5-5-2--------5-4-3-|-

на "от темна и до темна..."
    D5       C#7
A-|-5--5-5-5-4-4-4--2-2-0-5--5-5-5-4-4-4-4-2-0-|-
E-|--------------------------------------------|-

Супер-бонус: акустическая запись 97 года!
Аккорды видно вполне неплохо.

Просто приятный бонус: Таб на songsterr.com.

К списку песен
© 2007-2017 v.silvansky