Слон (аккорды):

(Фёдоров/Озерский)
Альбом: Бодун

C#m
И сон не сон, и жизнь как слон,
И быт как яд, и все хотят,
               A7+
Тебя вчера, сегодня я ...
   C#m
Я не хочу ни с ним, ни с ней,
Судьба палач моих ногтей,
                       A7+
Дави меня как слон говно,
Мне все равно... 

 C#m
Недобежать, недоуйти,
                      F#m
Недотерпеть, недоспасти...
 C#m
Ни до тебя, ни до меня, ни до нее.
         F#m
Сладкая жизнь...
 A       C#m
Надо ли мучиться,
 A     F#m
Долго ли...
 E    A      C#m
Ложь даст любовь.
 E    A      C#m
Ложь даст любовь.
 E    G#     C#m
Ложь даст любовь.

И смех не смех, и плач не плач,
У них как мех, у нас как мяч,
Я не люблю терпеть удач...
Я был не тот, не тем болел,
Не там гулял, не тех жалел,
Лови меня, тащи на дно,
Мне все равно... 

Недобежать, недоуйти,
Недотерпеть, недоспасти...
Ни до меня, ни до тебя, ни до нее
Сладкая жизнь... 
Надо ли мучитъся,
Долго ли...
Ложь даст любовь.
Ложь даст любовь.
Ложь даст любовь. 

А ты из спальни королей,
А мой удел - любить бл*дей... 

--------------------------
аккорды:

C#m: x-4-6-6-5-x
A7+: x-0-2-3-2-3
F#m: 2-4-4-2-2-x
E:   0-2-2-1-0-x
A:   5-7-7-6-5-x
G#:  4-6-6-5-4-x

как играть? не просто... хотя, можно и просто, но это вы
уж сами сообразите, а я уж приведу табы того, как на альбоме.

вступление:

H-|---5---7---5-------5---7---5-----|-
G-|-6---6---6---6---6---6---6---6---|-
D-|---------------6---------------6-|-

H-|---5---7--7-7-8-8-8-8-...-8-8-|-
G-|-6---6------------------------|-

H-|-9-9-9-9-9-...-9-8------------------------|-
G-|------------------------------------------|- 2x
D-|-6---------------6--5--6--5--6--5-6--5--6-|-

потом вступает бас:

    C#m
A-|---4-4---4-4-|-
E-|-4-----4-----|-

и играется под него типа соло:

D-|---6---5---4-------|-
A-|-4---4---4-------4-|- 2x
E-|---------------4---|-

потом собственно поётся. бас на C#m остаётся тот же, а на A7+:

    A7+
A-|---4-4---4-4-|-
E-|-2-----2-----|-

А вот тут крутота — видео 97 года, акустика!

К списку песен
© 2007-2017 v.silvansky