Седьмой (аккорды и табулатуры)

(Фёдоров/Озерский)
Альбом: Птица

Табулатура на songsterr.com.

* вступление на гитаре (с глушением),
* оно же играется почти всю песню:

G-|-------------------2-|-
D-|-2--5-4-5-2--5-4-5---|-

* вступление на басу:

A-|---2----2---3----3---4----4---5----5-|-
E-|-0----0---0----0---0----0---0----0---|-

* потом так

A-|---2----2---3----3---5----5---6h7p6---6-7-|-
E-|-0----0---0----0---0----0---0-------7-----|-

* потом под куплеты бас играть так:

A-|---2----2---3----3---5----5---6----6-|-
E-|-0----0---0----0---0----0---0----0---|-

* а ещё соло такое (на чём-то духовом):

    Em Cm Hm H7 Em Cm Hm H7
H-|-8--5--3--4-------------|-
G-|-------------5-----4----|-

Em           Cm              Hm
Седьмой седьмой отвечай седьмой
            H7  Em          Cm  Hm H7
Я тебя не слышу  почему молчишь
Em          Cm             Hm    H7    Em Cm Hm H7
За окном чужой но встал герой и вышел

У волка ночь у героя меч
За горами Волга холод за спиной
Ничего не жалко ничего надолго

* припев:

  C     Em
Где-е-е-е ещё
  C     Em
Что-о-о-о ещё
C     Em   G Cm Hm
Я-а-а-а  ещё!

* проигрыш на (G Cm Hm) в конце припева:

    G               Cm  Hm
H-|-------8-7-5-------------|-
G-|-----4-------5-4-----7---|-
D-|---5-------------4-5---4-|-
A-|-5-----------------------|-

Труба зовет герой идет звенит кольчуга
Только злится вьюга и ветер гонит прочь
Не уйти надолго не найти друг друга
День как день ночь как ночь

* припев, потом проигрыш:

    Em                  Hm
G-|-4---4-----4---4-------------------------|-
D-|---5-----5---5-----5-4---4-----4---4-----|-
A-|-------7---------7-----5-----5---5-----5-|-
E-|---------------------------7---------7---|-

* и под него поётся куплет:

Седьмой седьмой отвечай седьмой
Я тебя не слышу почему молчишь
За окном чужой но встал герой и вышел

* в акустике этот куплет поётся под Em Cm Hm H7

 Em                 Hm
Седьмой седьмой не надо бы
Седьмой седьмой а может быть
Седьмой седьмой ах если бы
Седьмой седьмой ну если бы
 Hm      H7
Надо бы надо бы

Em      Cm Hm
Если бы я
H7  Em      Cm Hm
О-о если бы я
H7  Em      Cm Hm H7 ...
О-о если бы я....

* в конце играть как вступление (гитара и бас)

------
аккорды:
Em: x-7-9-0-8-x
Cm: x-3-5-0-4-x
Hm: x-2-4-0-3-x
H7: x-2-4-0-4-x
C:  x-3-2-0-1-x

в конце (когда играется Em Hm) аккорды такие:

Em: 0-2-2-0-0-x
Hm: x-2-4-4-3-x

BONUS: видео с АукцЫон без саксофона, там неплохо видно все аккорды.

К списку песен
© 2007-2017 v.silvansky