Самолет (аккорды):

Альбом: Жопа, Это Мама

интро:

E-|-----0-------------|-
B-|-------0-----------|-
G-|---------------0---|-
D-|---1--------1----2-|-
A-|-2--------2--------|-
E-|-------------------|-

(на альбоме Это Мама играется 2 раза)

 Riff1
Мы летели долго, в полной темноте,
Яркие звезды, груды облаков.
 Riff2
Мне было плохо, я нездоров.
Мне было грустно, я нездоров. 

 Riff3
Остановите самолет, я слезу.
Остановите самолет, я слезу. 

 Riff1
Взорвите салон,
Позовите террористов,
Свяжите стюардессу,
Разрешите курить. 

Riff2                      Riff1
Мне было плохо, я нездоров.
Мне было грустно, я нездоров.


Пожалейте людей,
Дайте покушать,
Дайте журналы,
Девочек дайте, 

Вслух почитайте -
Надо подумать,
Что будет дальше,
Быстрее решайте. 

Остановите самолет, я слезу.
Остановите самолет, я слезу. 

Больше не могу,
Ноги в сиденье,
Локти как циркуль,
В голове только кость. 

Запах блевоты - 
Мешки не помогут.
Где же террористы,
Где стюардесса? 

Где же взрывчатка,
Где пулеметы?
Где же жилеты,
Ну где же жилеты? 

Остановите самолет, я слезу.
Остановите самолет, я слезу. 

Я прилетел - 
Вот оно, море,
Вот оно, счастье, Я прилетел... 

------------------------------
Riff1:

    Em
D-|-1---1-2---2-1---1-0---0-|-
A-|---2-----2-----2-----2---|-

Riff2:

    C
D-|-5---5-4---4-5---5-5/7-5-4-|-
A-|---3-----3-----3-----------|-

Riff3:

    G     H7    Em    H7
G-|---4-----4-----4-----4---|-
D-|-5---5-4---4-2---2-4---4-|-

Бонус: видео 97 года, самолёт в акустике!
Там есть и табы и аккорды над ними.

К списку песен
© 2007-2017 v.silvansky