Отлюбил (аккорды)

(Фёдоров/Озерский)
Альбом: Бодун

* основная тема играется так:

    C                        Am            Em7
H-|--------------------------------------------0-|-
G-|-5--5-5-5--5-5-5--5-5-5-x-5--5-5-5-5----7~----|-
D-|-5--5-4-5--5-4-5--5-4-5-6-7--7-6-7-6----5-----|-
A-|-3--3-3-3--3-3-3--3-3-3-x-0--0-0-0-0-7--7-----|-
E-|----------------------------------------0-----|-

* затем на эти же аккорды поётся:

C
отлюбил
Am    Em7
и бегу
C
отлетал
   Am        Em7
сплю на снегу

отхотел
снова на воле
перекати-тело
перекати-поле

ой ли мне
там где я не был
на-надейся
на небо

 Em         G
летай летай
 Em         G
летай летай

летай летай
летай летай

* на словах "летай летай" аккорд G играется так:

G-|-4--4-3-4--4-3-4-3-0-|-
D-|-0--0-0-0--0-0-0-0-0-|-
A-|-x--x-x-x--x-x-x-x-x-|-
E-|-3-----------------3-|-

* опять C Am Em7

на-на-на-надейся
на-на-на-на-надейся
на-на-на-надейся на
на-на-на-на-надейся
на-на-на-на-надейся
на-на-на-надейся
на небо
на-на-на-на-надейся
на небо
на-на-на-на-надейся
перекати-поле
на-на-на-на
перекати-тело
на-на-на-на
на-надейся
на-на-на-надейся
на небо

на-на-надейся
на небо

на-надейся
на-на небо
на-надейся
на-надейся
на-на де........

---
аккорды:

C:   x-3-5-5-x-x или 3-3-2-0-1-x
Am:  x-0-7-5-x-x или x-0-2-2-1-x
Em7: 0-7-5-7-x-x или 0-2-2-0-3-x
Em:  0-2-2-0-0-x
G:   3-x-0-4-x-x

на акустических концертах Лёня часто поёт слова под полные
варианты аккордов (которые после "или"), либо чередует табы
и эти аккроды. и играет Em вместо Em7.

BONUS: Видео на ютубе, с концерта 1997 года

К списку песен
© 2007-2017 v.silvansky