Нежно (аккорды)

(Фёдоров/Озерский)
Альбом: ВолНЫ

 Gm Cm A# D7 Gm    Cm
Между нежно  и тепло
  Gm1 Gm2
Снеж-но
  Gm Cm    A# D7
Что ночь что день
  Gm    Cm
Всё равно
C
Осень

* проигрыш 1

Возле грустно и светло
Пусто
Белый цвет белый свет
Чистый лёд
Пропоёт

* проигрыш 1

   A#      D7   Gm   D   Dm
Кадань немного шелеста убога
Кадань немного шелеста убога

Знал и верил за окном
Север
И хлябь и твердь
Ходит смерть
Ищет смерть

* проигрыш 2

* проигрыш 3

Между нежно и тепло
Снежно
Что ночь что день
Всё равно
Осень

* проигрыш 1

Gm  Cm  A#   D7
И  не  не  ото
Gm1    Gm2      Gm
Ед последнее железо

---
аккорды:

Gm:  3-x-0-3-3-x
Cm:  x-3-5-0-4-x
A#:  6-x-x-7-6-x или 6-x-x-x-6-x
D7:  5-5-0-5-x-x или 5-x-0-5-x-x
Gm1: x-1-0-0-3-x
Gm2: x-1-0-0-2-x
C:   3-3-2-0-1-x
D:   2-0-0-2-x-x
Dm:  x-x-0-2-3-x

на строках "Кадань немного..." бить в основном по басовым струнам

проигрыш 1:

    Gm
E-|--------3-2-1-0-|----------------|-
H-|-----3------1-0-|-----3----------|-
G-|---x-3----------|---x-3--3-5-3-0-|-
D-|-0-x-0----------|-0-x-0----------|-
A-|-x-x-x----------|-x-x-x----------|-
E-|-3-x-3----------|-3-x-3----------|-

проигрыш 2:

    Gm               Em
E-|--------3-2-1-0-|--------3-2-1-0-|-
H-|-----3------1-0-|-----0------1-0-|-
G-|---x-3----------|-0-x-0----------|-
D-|-0-x-0----------|-2-x-2----------|-
A-|-x-x-x----------|-2-x-2----------|-
E-|-3-x-3----------|-0-x-0----------|-

проигрыш 3:

    Gm
E-|--------------|--------------|-
H-|-----3------2-|-----8--------|-
G-|---x-3----x-3-|---x-7----x-6-|-
D-|-0-x-0--0-x-0-|-0-x-0--0-x-0-|-
A-|-x-x-x--x-x-x-|-x-x-x--x-x-x-|-
E-|-3-x-3--3-x---|-3-x----3-x---|-


PS: да, забыл сказать спасибо за присланный вариант basil-doom'а,
но его вариант я не использовал в данной подборке.

К списку песен
© 2007-2017 v.silvansky