(Фёдоров-Крутоголов/Авалиани)
Альбом: Взрыв цветов, В траве

Всю песню идет такой "фоновой" рифф:
A-|---7--7--7--7--7--7--7--7--|-
E-|--0--0--0--0--0--0--0--0---|-
- и так до бесконечности. Сама мелодия (и текст) выглядят так:

E-|--------------------|-------------------------|--------------------------|------------------------------|
H-|--------------------|-------------------------|--------------------------|------------------------------|
G-|--------------------|-5--5--4--4--------------|-7--7--5--5---------------|-7-7-5-5-4-4------------------|
D-|---7---7---5--------|--------------5----------|--------------5-----------|--------------5-5-------------|
A-|---------------7----|-----------------5---7---|------------------5-------|-------------------5-5--------|
E-|--------------------|-------------------------|----------------------7---|------------------------7-----|
  В траве на дне травы,   На самом дне  травы,    Я спал, отдавшись лону,   Когда, подобно ангельскому звону,

E-|---------------------------|---------------------------|----------------------------------|
H-|---------------------------|---------------------------|----------------------------------|
G-|---------------------------|-5--5--4--4----------------|-7-7-5-5-4-4----------------------|
D-|---7---7---5---------------|--------------5------------|--------------5-5-----------------|
A-|---------------7-----------|-----------------7---7-----|-------------------5-5------------|
E-|---------------------------|---------------------------|------------------------7---------|
    По   скорлупе              Огромной     головы         Ударил дождь и вбок меня и в спину.

E-|---------------------------|---------------------------|----------------------------------|
H-|---------------------------|---------------------------|----------------------------------|
G-|---------------------------|-5--5--4--4----------------|-7-7-5-5-4-4----------------------|
D-|---------------------------|--------------5------------|--------------5-5-----------------|
A-|---5---5---3---7-----------|---------------------7-----|-------------------5-5------------|
E-|---------------------------|---------------------------|------------------------7---------|
     И   понял   я,            И         понял     я,     И понял я, какой я страшно длинный...

Дальше идут импровизации - вариации основной темы на "Взрыве" и дикое пост-роковое нечто на "В траве" 
соответственно. Повторять второй вариант опасно для жизни (но есть подозрение, что там присутствуют такие кусочки):

E-|---------------------------|--------------------------|---------------------------|--------------------------|
H-|---------------------------|--------------------------|---------------------------|------8----------88-------|
G-|---------------------------|--------------------------|--------------------2--2---|--------------------------|
D-|---------------------------|--2--2--2--2--2--2--2--2--|---------------------------|--------------------------|
A-|-3-3--33333---2-2--22222---|-2--2--2--2--2--2--2--2---|-2-3-3--33333--3-2-2--2----|---7---7---7---7---7---7--|
E-|---------------------------|--------------------------|---------------------------|-0---0---0---0---0---0----|

E-|---------------------------|--------------------------|---------------------------|--------------------------|
H-|------------8-------8------|--------------------------|---------------------------|--------------------------|
G-|-444/9---9-9-9-9-9-9-9-9-9-|-9999---777---4-----------|-121212--11--7--4----------|-14141414-121212-11-7--4--|
D-|---------------------------|--------------------------|---------------------------|--------------------------|
A-|-222/7--7-7-7-7-7-7-7-7-7--|-7777---555---2-----------|-101010--9---5--2----------|-12121212-101010-9--5--2--|
E-|---------------------------|--------------------------|---------------------------|--------------------------|

E-|---------------------------|--------------------------|---77777--55555555--33333333--22222222-----|
H-|---------------------------|--------------------------|---00000--00000000--00000000--00000000-----|
G-|---------------------------|--------------------------|---00000--00000000--00000000--00000000-----|
D-|-555-----3-----7-----------|-5555-----3-----7---------|-------------------------------------------|
A-|---------------------------|--------------------------|--777777--55555555--33333333--22222222-----|
E-|-333-----1-----5-----------|-3333-----1-----5---------|-------------------------------------------|

Возможны также и вкрапления из соло "Взрыва цветов" (табы к "Взрыву" лежат где-то рядом), ну и вообще что-то в этом роде.
Ясное дело, что фиксировать федоровские импровизации довольно бессмысленно, так что берем за основу эти отрезочки,
задеваем какие попало струны и вообще делаем, что хотим.

После небольшой импровизационной паузы продолжаем:

E-|--------------------|-------------------------|--------------------------|------------------------------|
H-|--------------------|-------------------------|--------------------------|------------------------------|
G-|--------------------|-5--5--4--4--------------|-7----7----5----4---------|-7~-----5---5-----------------|
D-|---7---7---5--------|--------------5----------|---------------------3----|----------------5---5---------|
A-|---------------7----|-----------------5---7---|--------------------------|------------------------1-----|
E-|--------------------|-------------------------|--------------------------|------------------------------|
    На мне    зрачки     Как бабочки открылись      И         удивились     -   О,    как     удивились!   

Еще с минуту импровизаций, и песенка спета.

___________________________________________
Видео.

За подбор спасибо Гау-Гау!


К списку песен
© 2007-2017 v.silvansky