(Федоров-Волков/Молев-Смуров)
Альбом: Красота

В песне четыре основных риффа (+некоторые вариации, которые мы тоже укажем):

Riff1:
A-|--1--------1--------|-     
E-|------3--------3----|-

Riff1*:
A-|--1------1-----------|-     
E-|---------------3-----|-

Riff2:
D-|----------------------------------|-
A-|---1---3/5---3---1------1----1----|-    
E-|-3---3---------------3----3----3--|-

Riff3:
G-|-----------------3----------------|-
D-|-----3-------3-------5------------|-
A-|-5-------5------------------------|-    
E-|----------------------------------|-

Riff3*:
G-|--------------------3-------------|-
D-|-----3----------3-------5---------|-
A-|-5-------5--5---------------------|-    
E-|----------------------------------|-

Riff4:
G-|-3--------------------------------|-
D-|-----5---3------------------------|-
A-|-------------5---5--3--1---1---1--|-    
E-|-------------------------3--3---3-|-

Riff4*:
G-|-3--------------------------------|-
D-|------5----3----3-----------------|-
A-|---------------------5----3-------|-    
E-|----------------------------------|-

Играется все это в несколько блюзовом ритме.
Из всех наших риффов можно быстро сконструировать вступление:

Riff1  
Riff2  x2
Riff3
Riff3*
Riff4

В принципе, под такой же рисунок песня и поется:

Riff1     Riff2
Mooi Мао. Твой Мао.
Riff1*    Riff2
Мой, Мао. Чист Мао.
Riff1* 
Сheese Мао.

Riff3*       Riff3
Мамао Бабао. Мамао-Ба-ба-бао.
Riff 4
Met jow Van jow, и в яму к хуям их.

Riff1*    Riff2
Глаз Мао. Кос Мао.
Riff1*    Riff2
Пас Мао.  Коз Мао.
Riff4*
Скунс Мао, KUNST Мао.
Riff1*    Riff2
Грыз Мао. UUR Мао!

Riff3*       Riff3
Мамао Бабао. Мамао-Ба-ба-бао.
Riff 4
Met jow Van jow, и в яму к хуям их.

Дальше нагромождаем все семь риффов в неудобоваримую для слуха конструкцию,
разбавляя все это собственными вариациями и выкриками, т. к. песенка прекрасно подходит 
для импровизаций (в том числе и на уровне текста - в лучших традициях "Леди Дай").

__________________________________________________
Видео: https://www.youtube.com/watch?v=-kwVjk_pxwM

За подбор спасибо Гау-Гау!

К списку песен
© 2007-2017 v.silvansky