Лиза (аккорды):

Альбом: Как я стал предателем

вступление (примерно):

B-|---12--12-8--7h8-7h8-8-7-x-7\5-|-
G-|-0-0------0------------0-------|-
D-|-------------------------------|-
A-|-----------------------------7-|-

несколько раз, затем играется одна нота:

B-|-7---------------7---------------|-

но если играть просто на гитаре, то советую
играть аккорд D... два раза ;)

на куплет играется такая замороченная вещь
(аккорды расставлены для виду и для того, чтоб
понять, где какая часть табов играется)

    Em     D                 Em     D
B-|----------7-------------|------------------------|-
G-|----8-8---7-------------|----8-8---7-------------|-
D-|----0-0---0-7-----------|----0-0---0-7-----------|-
A-|-7----------4-5-7-5-4-5-|-7----------4-5-7-5-4-5-|-
E-|--------7---------------|--------7---------------|-

достаточно замороченно, но красиво =) под эти табы
собственно куплеты и поются.

на припев идёт интересный переход, но как его сыграть на
одной гитаре - решайте сами ;)

      Em    Am       C     Em    Am       C
E-|-7/12-12------------|-7/12-12------------|-
B-|-7/12-12------------|-7/12-12------------|-

бас под это дело:

      Em    Am       C     Em    Am       C
E-|-3-0-----5-5-5--5-8-|-3-0-----5-5-5--5-8-|-

потом на "Подари мне..." играется всё время аккорд C

после "Я хочу луну!!" идёт проигрыш как в начале:

B-|---12--12-8--7h8-7h8-8-7-x-7\5-------|-
G-|-0-0------0------------0-------------|-
D-|-------------------------------------|-
A-|-----------------------------7-------|-

но с добавкой на второй гитаре:

B-|-------------------------------7--5--|-

и опять два раза D.
затем второй куплет и опять припев...

после второго припева и проигрыша идёт такая вещь

бас:

E-|-7-7-7-7-5---7-7-7-7-5-0---|-

под это начинается такое соло:

E-|-10-10--12-12--14-14--15-15-|-
B-|----------------------------|-
G-|-7--7---9--9---11-11--12-12-|-

затем на второй гитаре:

B-|----------------------------|-13-13-13-13-13-13-13-13-15--|-
G-|-11-11-11-11-11-11-11-11-9--|-----------------------------|-


E-|-14-14-14-14-14-14-14-14-12--|-----------------------------|-
B-|-----------------------------|-13-13-13-13-13-13-13-13-15--|-

и поётся подо всё это:

О, Лиза, Лиза... О, Лиза, Лиза...

***

а теперь текст с расставленными "аккордами", для упрощения
чтения табулатур:

 Em           D          Em  D
Сядь рядом, спой песню, Лиза.
  Em          D        Em      D
Спой песню, спой тихо, я помолчу.
Em          D           Em  D
Ты можешь все, Лиза-подлиза,
Em          D                Em     D
Ты хочешь знать, о, Лиза, чего я хочу... 

Em             Am      C
  Если можешь дай ты мне,
Em Am         C
  Ты обещай мне,
Em Am      C
  Подари мне :
    C
  Звезду, и не одну,
   C
  Мечту, и не одну,
 C
  Одну, и не одну...
 C
  Весну... - 
 C          Em +проигрыш
  Я хочу луну! 

Вспомни про то, как любила,
Как мы гуляли на Крюков канал.
Уехал милый в сторону Нила,
Ну что нам СПИД,
Да мало ли чем я хворал... 

Если можешь дай ты мне,
Ты обещай мне,
Подари мне :
Звезду, и не одну,
Мечту, и не одну,
Одну, и не одну...
Весну... - 
Я хочу луну! 

О, Лиза, Лиза...
О, Лиза, Лиза... 

К списку песен
© 2007-2017 v.silvansky