Лети, лейтенант (табулатуры):

(Фёдоров/Озерский)
Альбом: Как я стал предателем

* сначала просто риффы, где что играть - ниже

bass:

bass riff1
D-|-2---------|-2---------|-
A-|----2-3-0--|----2-3-0--|-
E-|-----------|-----------|-

bass riff2
D-|-2--2-2-|-------|-
A-|--------|----0--|-
E-|--------|-------|-

bass riff3
D-|--------------------------------------|-
A-|-2--2-2-2--2--2-2-2--0--0-0-0---------|-
E-|-------------------------------2-3-2--|-

bass riff4
D-|-2-1-0-2-1-0-2-1-0-2-1-0-|---------------------|-
A-|-------------------------|-2---------2---------|-
E-|-------------------------|----2-3-0-----2-3-0--|-

guitar:

guitar riff1
E-|--7--5-----------------|-
H-|-------5/8--5/8-5------|-
G-|-4----------------5/7--|-

guitar riff2
E-|-5--5p3--|-
H-|---------|-
G-|-5--5p4--|-

guitar riff3
E-|-7--7-7-|----5--|-
H-|-8--8-8-|----5--|-
G-|-7--7-7-|----6--|-

guitar riff4
E-|----7/8---|-
H-|----------|-
G-|----------|-
D-|----9-----|-

guitar riff5
E-|-7-7-7-|-
H-|-7-8-7-|-
G-|-7---7-|-

guitar riff6
E-|-7---------|-
H-|-8--7-8-5--|-
G-|-----------|-
D-|----7-9-5--|-

* на концертах Лёня играет Em H C вместо этого
* да и все остальные табы модифицирует

------------------------------------

* играть примерно так:
* вступление - bass riff1
* под него вступает guitar riff4
* и играется соло guitar riff1
* потом под bass riff1 и guitar riff4 поётся:

Больно мне скушно мне тошно мне
Друга нет нет совсем есть покой

bass riff2 + guitar riff3
   Только ходит за мной
   Тот другой с клюкой

* дальше играется bass riff1
* и поётся с guitar riff2

Не надо воли довольно
Какой с клюкой политрук
Он мне не делает больно
                  bass riff3
И значит это не друг
               guitar riff5
А где мой друг
Лейтенант

* на слове "друг" вступает bass riff3,
* в его конце играть guitar riff5
* только после него поётся "Лейтенант"
* и опять идёт bass riff1
* добавляется guitar riff4

О милый друг где тяжесть ваших рук
О мой любимый папа

Только ходит за мной
Но не то в пальто

Не больно воле дотоле
Доколе воля больна
Бывают разные воли
А боль бывает одна
А где она
Лейтенант

bass riff4 + guitar riff6

Лети лети
Лейтенант
Серая птица усталая
Лейтенант...

* и так далее до посинения
* при желании можно всё играть на одной гитаре
* разумеется, немного подредактировав

* а вообще мне кажется, что тут многое не правильно.
* ну, разве что кроме соло, за него я почти ручаюсь.

************************************************

* моя версия акустического варианта

Em H C A - несколько раз

 Em   H  C A   Em  H   C A Em  H  C A
Больно мне   скушно  мне  тошно мне
Друга нет нет совсем есть покой

 Em
   Только ходит за мной
 A
   Тот другой с клюкой

Em    H  C    A Em    H7
Не надо воли довольно
Em        H C     A  Em H7
Какой с клюкой политрук
Em      H  C  A   Em    H7
Он мне не делает больно
Em    H  C        Hm7
И значит это не друг
            Hm7 Em7  Hm7
А где мой дру-у-уг
Лейтенант

О милый друг где тяжесть ваших рук
О мой любимый папа

   Только ходит за мной
   Но не то в пальто

Не больно воле дотоле
Доколе воля больна
Бывают разные воли
А боль бывает одна
А где она
      Em
Лейтенант

   Hm  F# G E Hm F#
Лети  ле-ти
 F# G Em
Лейтенант
Серая птица усталая
Лейтенант...

------
аккорды:

Em:  x-x-9-9-8-7
H:   x-9-9-8-7-7
C:   x-10-10-9-8-8
A:   x-7-7-6-5-x
H7:  x-9-7-8-10-x
Hm7: 7-9-7-7-7-x
Em7: 7-9-7-7-8-x

* в конце песни аккорды такие:

Hm:  x-2-4-4-x-x
F#:  2-4-4-x-x-x
G:   3-5-5-x-x-x
E:   0-2-2-x-x-x
Em:  0-2-2-0-0-0

вот уж не гарантирую правильность...
особенно Hm7 и Em7...

К списку песен
© 2007-2017 v.silvansky