Карлик Нос (аккорды):

Альбом: В Багдаде все спокойно

вступление:

E-|---------------------------------------|-
H-|---7-7-7-------------------------------|-
G-|---7-7-7-6---7-6---6-6-6-6-6-6-6-6-6-6-|-
D-|-----------7-4-7-6-7-7-7-7-7-4-4-4-4-4-|-
A-|---------------------------------------|-
E-|-7-------------------------------------|-

так несколько раз...

потом

H-|---7-7--7---8-8---8---10-10----|-
G-|------6---------7-----------9\-|- - первая гитара
D-|-4--------x---------7----------|-

вторая гитара играет Hm7

тоже несколько раз...

потом на клавишах

E-|-7-5---7-5---7-5-|-
H-|-----7-----7-----|-

потом идёт дикое соло (на 35-й секунде), которое пока
не подбираю, ибо это надо дооолго сидеть ;)

далее достаточно просто играется и поётся:

Hm7              F#m7
Богатство угодий.
Hm7            F#m7
Пассивное племя 
Hm7            F#m7
в угоду погоде
Hm7          F#m7 Hm7 F#m7
Посеяло семена.
Hm7
Я - Карлик-нос,
Hm7          F#m7
Мне не до сна.
            A                F#m
Больной вопрос - я - Карлик-нос,
            Hm7 F#m7
А вдруг война?
          A           F#m
Я все смогу, я не сбегу.
         Em         Hm7 F#m7
Бытует мнение, и я йе-йе. 

Нелегкое время, но челюсть вставную
Пассивное племя посеяло на лугу.
Я- Карлик-Нос, я все могу.
Любой вопрос, не надо слез,
Я помогу.
Песок могу, могу тайгу,
Могу и мнение, и я йе-йе. 

Где челюсти сеют, там вырастут брови,
И нас не посмеют тогда не принять всерьез.
Я - великан, я - Карлик-Нос,
Я - великан, я - великан.
Ich weiss es nicht;
Was ist los?
Zusammen!
Ein, zwei, drei!! 

Мнение и я йе-йе

------------------
аккорды:

Hm7:  7-9-0-0-0-0
F#m7: x-9-11-9-10-9
A:    5-7-7-6-5-5
F#m:  2-4-4-2-2-2
Em:   x-7-9-9-8-7

вся песня играется специфическим боем...

Hm7 F#m7 - играется первый аккорд, потом резкий переход
на второй и назад. собственно, так всю песню...

К списку песен
© 2007-2017 v.silvansky