Глаза (аккорды):

(Фёдоров/Озерский)
Альбомы: Птица, Четыресполовинойтонны

* на птице

* вступление:

* акустическая версия:
Dm A# A Dm A# A

* птичная версия (2 гитары синхронно), примерно:

D-|-7-8-7--7-7-7-7-8-7-|-
A-|-5------------5-----|-

H-|-3-6------6-6-3-----|-8-6--8-6-8~-|-
G-|-2------------2-----|-------------|-

 Dm A# A     Dm      A# A
Ночь  видим пыль в гла-за    * (а может быть, и "видимо")
Dm A#  A      Dm  A# A
   И длинная как вокзал
Dm A# A    Dm  A# A Dm A# A
  Ма-линовая сле-за
F         Gm
 Дрожала, о...

Dm A# A        Dm A# A
  Ле-тали как те-ни век
Dm A# A      Dm A#  A
  Ла-тали коле-ни снег
Dm A# A     Dm A# A       Dm A# A Dm A# A
  Топтали оле-ни то чего мало

* соло после "то чего мало" и до "завела":

H-|-6-6-6-6-6--|-
G-|--7-7-7-7-7-|-

* припев:

 Gm A#  A      Gm A# A      Gm A# A Gm A# A
Бе-лым шёлком закру-жила мгла
 Gm A#  A       Gm A#  A      Gm A# A    Gm A# A
Бе-лым волком кру-жит ночь и за-ве-ла и за-ве-ла

Dm Gm Dm  Gm Dm A     Dm Gm
О,     тонут  мои глаза
  Dm Gm Dm A       Gm A
Сты-нут о-ни в слеза--ах
  F        A
Звёзды на косах

Dm Gm Dm Gm   Dm A Dm Gm
О,    я уже всё забыл
 Dm Gm   Dm  A Gm A
Ты уже всё сказа--ал
 F        A
Дом на колёсах
 Dm A# A Dm A# A
Ночь

Да-да-да ночь
Да-да-да-да...

Несмело со мной стоит
Ночь с телом как у змеи
Стоит а глаза мои
Как лисья, о...

Сомнительная луна
Вот и литерный как война
Сплетённые трубы тёмные мысли

* припев 2 раза

* потом проигрыш примерно такой (первая гитара - аккорды, вторая - соло, голос вторит)

    Dm A# A   Dm A# A         Dm A# A   Dm A# A
E-|-3--1--------------|-3-3-3-3--1--------------|-
H-|-------------------|-------------------------|-
G-|---------2-3--2----|---------------2-3--2----|-

          Dm    A# A    Dm A# A   F     A
E-|-3-3-3-3h5p3-1---------------|---------------|-
H-|-----------------------------|---------------|-
G-|-------------------2-3--2----|-2-5-2-3-2-0---|-
D-|-----------------------------|-------------3-|-

* на припев, начиная со строчки "О, тонут мои глаза..." играется соло:
* (оно же играется третьей гитарой на финальный проигрыш)

E-|-17-------17-------------|----------17-------------|-
H-|----14-15----14-15-18-14-|-15-14-15----14-15-18-14-|-

E-|-------------------------|----------15----15-17-18-|-
H-|-15-14-15-18-14-15-18-14-|-15-17-18----18----------|-

* в финале песни играется это же соло, но только завершается на 1й ноте второго такта
* (9-я нота табов)
* раскидать аккорды над этим соло сложно, лучше просто попробовать сыграть

* примерная басовая партия:

* на Dm A# A

A-|-5-----5------3-4-|-5-----5------3-4-|-
E-|----5-----5-5-----|----5-----5-5-----|-

* на Gm A# A

E-|-3--5--3--5-|-3--5--3--5-|-

* на припев (совсем примерная и неточная сложная неразборчивая)

A-|-5-----------------4-5-|------------------|-
E-|---x-6-3-5-3-5-3-5-----|-3-3-5-5--1-1-5-5-|-

* теперь про то, как же сыграть эту сложную песню
* на акустической версии играть просто аккорды, на птичной же сначала поётся под бас,
* затем вступает гитарка (тихонько так), на припеве она тоже звучит.
* основной ритм (Dm A# A) играть так: первые три ударных ноты приходятся на удар по струнам
* сверху вниз, затем - три ударных ноты приходятся на удары снизу вверх
* и так чередуется это дело всю песню, за малым исключением:
* в конце припева на "и звела и завела" играется только вторым способом (ударные ноты - снизу
* вверх), иначе будет сбой ритма песни.

* а вот как сыграть припев - даже не спрашивайте, аккорды вроде правильные, но ритм голоса
* и гитары не совпадает, так что у меня так и не вышло сыграть это синхронно.

---
аккорды:

Dm: x-5-7-7-6-5 (куплеты) и x-0-3-2-3-1 (припев, называется типа Dm/F)
A#: x-8-8-7-6-6 (куплеты)
A:  x-7-7-6-5-5 (куплеты) и x-0-2-2-2-x (припев)
Gm: 3-5-5-3-3-3 (хотя в припеве можно и 3-x-x-3-3-3)
F:  1-3-3-2-1-1

BONUS: видео на ютубе, где неплохо видны аккорды, в частности вызывающий споры Dm/F.

К списку песен
© 2007-2017 v.silvansky