Фа фа фа (аккорды):

(Фёдоров/Озерский)
Альбомы: Бодун, Это - мама

проигрыш:

G-|-6~------6~----------------|-6~---------------------|-
D-|---7-5-7---7-5--8-7-5----5-|---7-5-7--8-7-5-------5-|-
A-|----------------------8----|----------------8-7-8---|-

а потом

G-|-------------|-
D-|---5-(7)-----|- нота в скобках берётся на бас-гитаре, но если
A-|-8-------8-5-|- хочется, можно и на обычной ;)

Dm Gm Dm Gm 

Gm Dm      Gm 
Я нервный, я верный, пока...
   Dm
Я нежный.
Gm
Фа-фа, фа-фа, фа-фа, фа-фа.
 F            Gm
Галюциногены, Юга...
 Dm
Нас до фига,
          Gm
Накатила суть,
  A + проигрыш
Ага! 

Я беглый, я бедный, пока...
Я белый,
Фа-фа, фа-фа, фа-фа, фа-фа.
Деды-дымоделы, снега...
Все бы в бега,
Накатила суть,
Ага! 

[тут играется безумное соло, большая часть - импровиз]

*на альбоме "Это - мама" после проигрыша идёт речитатив:

Всё профкуал пропукал
Теперь гуляй сокол
Да радуйся громче сука
Никого не осталось около
Раньше бы зараза плакал и хныкал
Пикал пипикал какакал
Холодно пусто хихикал плакал
Затюкал, затюкал истыкал
Застукал, плакал. На кол!

*на концертах эта часть присутствует не всегда, иногда
*оформляется как отдельная композиция. На сольных 
*концертах Лёни она превратилась в песню Профукал.

Я нервный, я верный, пока...
Я вредный.
Фа-фа, фа-фа, фа-фа, фа-фа.
Был бы я волшебный, тайга...
Жил-поджигал,
Накатила суть,
Ага!

-------------------
басовая партия:

    Dm (и на F)                 Gm
A-|-0------------0------------|-1------------1------------|-
E-|---1-3-1--x-1---1-3-1--x-1-|---3-1-3--1-3---3-1-3--1-3-|-

Аккорды:

Dm: x-x-0-2-3-1
Gm: 3-x-0-3-3-3 или 3-5-5-3-3-3
F:  1-3-3-2-1-1 или x-3-3-2-1-1
A:  x-0-2-2-2-0 или 5-7-7-6-5-x

кому как удобнее.

Соло после 2 куплета (наброски):

на Бодуне играется весьма красивое соло, примерно такое:

E-|-----0--------0--------|-----0-------|-
H-|---3---3--------3------|---3---3-----|-
G-|-2-------2~-2-----2/5--|-3-------3~--|-
D-|-----------------------|-------------|-

E-|-----0--------0--------|-----0-------|-
H-|---3---3--------3------|---3---3-----|-
G-|-2-------2~-2-----2/5--|-3-------3~--|-
D-|-0---------------------|-------------|-

далее идёт дикий импровиз... на концертах описанная часть
соло почему-то не играется.

К списку песен
© 2007-2017 v.silvansky