Дорога (аккорды)

(Фёдоров/Озерский)
Альбом: Птица

* вступление

   Em
E-|-7-5-3-0----0----0-3-|- - несколько раз
H-|----------3----3-----|-

   Em                  Am
Я сам себе и небо и луна
         H7        Em
Голая довольная луна
          Am        H7     Em
Долгая дорога да и то не моя

За мною зажигали города,
Глупые, чужие города,
Там меня любили, только это не я.

 Hm C     Am H7
 О--о зона!
Hm        C          Am      H7
 Ожидает напряженно родниковая

Я сам себе и небо и луна
Голая довольная луна
Долгая дорога бескайфовая

Меня держала за ноги земля
Голая тяжелая земля
Медленно любила пережевывая

И пылью улетала в облака
Крыльями метала облака
Долгая дорога бескайфовая

О зона
Ожидает напряженно
Беспросветная

Я сам себе и небо и луна
Голая довольная луна
Я летаю где-то только это не я

* потом проигрыш:

Hm C Am H7 - несколько раз, напевая "О-о, о-о..."

* потом

 C       H7
Ла лала лай
 C       H7
Ла лала лай
         Em
Сам себе я...

* и финальное соло (в оригинале - на скрипке):

    Em               Am           H7      Em
E-|-7--5-3-2-0---------|-5--3-2-0-----------|-
H-|------------3-1-0---|----------4-1-0-----|-
G-|------------------2-|----------------2-0-|-
D-|--------------------|--------------------|-

    Em       Am      H7    E
E-|-3--2-0-------------------|-
H-|--------3-1-0-------5-4-5-|-
G-|--------------2-0---------|-
D-|------------------4-------|-

* в конце именно E мажорный
* (если последнюю ноту заменить на 0, а E на Em,
*  то получится мелодия вокала на куплеты ;)

--------
аккорды:
Em: 0-2-2-0-x-x
Am: x-0-2-2-1-x
H7: x-2-1-2-0-2
Hm: x-2-4-4-3-2
C:  x-3-2-0-1-0 или x-3-5-5-5-3
Em: 0-2-2-1-0-0

Em и Am играть примерно так:

    Em
D-|-2-2-2-2--2-2-2-2-2-2-2-|-
A-|-2-2-2-2--2-2-2-2-2-2-2-|-
E-|-0-0-3-0--0-3-0-3-0-5-3-|-

    Am
G-|-2-2-2-2--2-2-2-2-2-2-2-|-
D-|-2-2-2-2--2-2-2-2-2-2-2-|-
A-|-0-0-3-0--0-3-0-3-0-5-3-|-

т.е., зажимая и отпуская басовую струну на 3 и 5 ладах

К списку песен
© 2007-2017 v.silvansky