Что-нибудь такое (аккорды):

Альбомы: Четыресполовинойтонны, Анабэна, Зимы не будет

C#m  F#m  C#m + соло

 C#m              F#m
Голову рукою обернуть - a!
Нет тебе покоя.
   C#m                    F#m
Здесь тебе чего-то не найти, a!
Что-то не вернуть,
 C#m                   F#m
Там тебе никак не обмануть, a!
                 A
Что-нибудь такое а-а-а-а, а,
       G#
Где-нибудь!

Все б тебе бродить по городам, а!
Лето золотое,
Там тебе не вспомнить, не забыть, а!
Что не знаешь сам,
Здесь тебе никак не победить, а!
Что-нибудь такое а-а-а-а, а,
Где-то там!
 
Голову рукою обернуть - a!
Нет тебе покоя.
Там тебе чего-то не найти, a!
Что-то не вернуть,
Здесь тебе никак не обмануть, a!
Что-нибудь такое а-а-а-а, а,
Где-нибудь!


--------------
На альбомах "Анабэна" и "Зимы не будет" играется
только C#m и F#m, вроде...

Соло:
вообще-то Лёня играет так, что одновременно звучат аккорды
и соло, кроме того, он напевает это соло голосом.

    C#m
B-|-5---5----------------------|-5---5----------------------|-
G-|---6-----6------------------|---6-----6------------------|-
D-|-------6---6---6------------|-------6---6---6------------|-
A-|-------------7---4--7-6-5-4-|-------------7---4--7-6-5-4-|-

    F#m
B-|---------2-2-1-2-----------4-5-4---|-
G-|-2-2-1-2---------2-4-2-1-2-------2-|-
D-|-----------------------------------|-
A-|-----------------------------------|-

    C#m
B-|-5---5--------------------|-
G-|---6-----6----------------|-
D-|-------6---6---6----------|-
A-|-------------7---4--7-6-4-|-

C#m:  x-4-6-6-5-4
F#m:  2-4-4-2-2-2
A:    5-7-7-6-5-5
G#:   4-6-6-5-4-4

К списку песен
© 2007-2017 v.silvansky