(Фёдоров/Озерский)
Альбом: Быть везде

Схемы аккордов:

Em:   0-2-2-0-(0)-x
D:    2-х-0-2-(3)-x
Gm:   3-х-0-3-(3)-x      (ноты в скобках зажимаются чуть позже остальных)
Fm#:  2-3-3-x-x-x      
H7:   x-2-1-2-x-x  
     G-|-3-3--3-5-3--|- 
X:   D-|-0-0--0-0-0--|-
     A-|-------------|-  
     E-|-3-3--3------|-   

Вступление (Riff1):
D-|--2--22--22--22------|-
A-|--0--00--00--00------|-     х4
E-|-3--3---3---3---3----|-

Em
Семь тихих нет 
D
Я вывел в свет
Gm           X
И трав с утра,
Em
Все о ладони
D
Грея где
Gm           X      
Никого людей.
Em
Устав уста
D
Не тем, не те,
Gm           X
Не свет, не тень,
Em     D Gm     X
Ты ночь, я - день.

Riff1
Быть везде!    x4

Тих и нем, потерям верен,
Кто где, и не жил нигде,
И если не везло - везли.
Безлик, чьим словом стала лень, 
Как свет, как тень,
Я ночь, ты - день.

Быть везде!

Fm#!    Fm#!
Взошло, ушло,
Fm#!    Fm#!
Тяжело, тяжело

Riff1
Быть везде!    x2

Тут у нас появляются еще два риффа:

Riff2:
D-|-1---1---1---1---1-----|-
A-|--23--23--23--23--233--|-     х2
E-|-----------------------|-

Riff3:
D-|-5---5---5---5---5-----|-
A-|--67--67--67--67--677--|-     х2
E-|-----------------------|-

Используются эти риффы следующим образом - сперва играется проигрыш, а потом под них же поются слова (однако текст можно петь и под H7):

Riff2
Riff3

Riff2
Там молила, мыла, ла
Полусном, узлом
Riff3
Ну молила мамамаммала
И туманно в безымянных странах...

Riff1
Быть везде!    x4    

Fm#!    Fm#!
Взошло, ушло,
Fm#!    
Тяжело...

__________________________________________
BONUS: Видео.

За подбор спасибо Гау-Гау!

К списку песен
© 2007-2017 v.silvansky