Алкоголизм (аккорды):

Альбом: Четыресполовинойтонны
 
(вступление)

Am'
Я где-то
Был - не был
Знай наших
Весь сизый
 Em
Пел

  Am'
Звал лето
Смех грубый
стук в стену
Что надо
  Em
Съел

               Am'
Алкоголизм не шутка
          Em
Прощай Мишутка
               Am'
Алкоголизм не шутка

(тут проигрыш)

Там дуло
Дым валом
Стол мокрый
Весь в птицах
Был

Что видел
что помню
Нос кверху
Сам гордый
Плыл

Алкоголизм не шутка
Прощай Мишутка
Алкоголизм не шутка

-------------------------

Am': Быстро играть Аm Am A9 Am - Am Am Am A9 Am (указательный палец 
сначала отпустить со 2-й струны, затем опять зажать, отпустить все 
струны, зажать, и т.д.)

A9: 0-0-2-2-0-0
- : x-x-0-0-0-0

вступление:

Am', потом кода:

            Am'
D-|-2-3-2-----|-
A-|-------3-0-|-

так несколько раз, с небольшими импровизами, потом

          Am'
A-|-------0-|-
E-|-3~0-3---|-

и начинается текст.

Проигрыш:

H-|-1-1-1-0-|-
G-|-2-2-2-2-|-  тут паузка..
D-|-2-------|-
A-|-0-------|-

потом

G-|-7-7-7-7-5-5-9-9-4-4-5-5---------|-
D-|-7-7-7-7-5-5-9-9-4-4-5-5---------|-
A-|-5-5-5-5-3-3-7-7-2-2-3-3-------0-|-
E-|-------------------------3-3-4---|-

К списку песен
© 2007-2017 v.silvansky