(Федоров/Волохонский-Царь Давид)

Альбом: Псалмы

Схемы аккордов:

Cm: x-3-5-0-4-x
Fm: 1-x-0-1-1-x
G#: 4-6-6-5-x-x
G:  3-5-5-4-x-x

Песнь восхождения.

Cm
Столь хорошо и приятно
Fm
Быть воедино братьям,
G#
Словно лучшее масло 
G
Когда с головы стекает
Cm              F
На бороду-браду Аарона
G#
Да по каймам его одеяний.
G
Так талый снег Хермона
C                F
На эти горные выси льется,
G#
Ибо там рек Яхве 
G
Превознося жизнь вовеки.

Далее - такое:

E-|-------------------   ||--------------------|-------------------- ||
H-|---4-4-4-4\3-3\1---   ||----1-1-1-1\0-------|-------------------- ||
G-|-------------------* х||--------------1\0---|---5-5-5----4-4-4---*||
D-|-------------------* 2||--------------------|--------------------*||
A-|--3----------------   ||--------------------|-------------------- ||
E-|-------------------   ||--1-----------------|--4-------3--------- ||

E-|-------------------   ||--------------------|-------------------------- ||
H-|--6-6-6-6--5-5--3--   ||--8-8-8-8--5-5--5---|--12-12-12-12--9--9---8--- ||
G-|--7-7-7-7--6-6--4--* х||--9-9-9-9--7-7--6---|--13-13-13-13--10-10--9---*||
D-|--0~---------------* 2||--0~----------------|--0~----------------------*||
A-|-------------------   ||--------------------|-------------------------- ||
E-|-------------------   ||--------------------|-------------------------- ||

Там еще много всяких моментов, Леня на обеих презентациях в основном импровизировал, но в общем финальный проигрыш выглядит как-то так.

__________________________________________________
Видео: https://www.youtube.com/watch?v=kLfhiN2sOok
     и https://www.youtube.com/watch?v=oe7kj0B6Yb8  

Прислал: Гау-Гау


К списку песен
© 2007-2017 v.silvansky