(Федоров/Озерский)
Альбом: Мотыльки

Тут просто по тексту накиданы аккорды, как играть - написано в конце страницы 

F
Небо выпил и с губ сдул,
Белым лебедем с губ сдул,
Am
Ночь не движется на посту.
Dm
Камнем в бездну и жаль заранее.
Встал заранее, устал заранее.
Am
Теплое, синее море страдания.
X                        D
Щеки, щеки, горят от пощечин.
Gm
Плевал я на звезды, бесстрашен, безжалостно точен,
E
Как солнце-злодей, который не любил людей.
Am
Но люди не спят, люди везде.
H-|-3---3---3---3--------|-
G-|-2---1---0---2--------|-
D-|-0---0---0---0--------|-
Люди не спят, люди везде.

F

Снова утро - я бодр, мудр,
Утро, пудра - я бодр, мудр.
А кто не накрашен - бессмысленно страшен.
Высило, весело там, за рекой,
Синее, тихое и далеко.
Там впереди свет. Здесь ничего нет.
Глаза горят, губы парят,
Обидно от мысли, что все это зря.
Каждый несчастный и каждый напрасный
Может значительным стать ежечасно.
Встал, задыхаясь, смахнул слезу, - 
Я сам себе горло перегрызу.
Сам себе горло перегрызу.

СХЕМЫ АККОРДОВ: 

Dm, D, X (Не знаю, как назвать) играем простыми боем без всяких наворотов. 

Dm: 1-0-0-2-3-0
D : x-x-0-2-3-2
X : x-1-0-0-3-0

С остальными чуть сложнее.

Fm: 

D-|-0-3-3-/-5-\-3-0--|-
A-|-0-3-3-/-5-\-3-0--|-
E-|-1-1-1-/-3-\-1-1--|-

Am:

H-|-1-1-1-/-2-\-1-1--|-
G-|-0-2-2-/-3-\-2-0--|-
D-|-0-2-2-/-3-\-2-0--|-

Gm:

H-|-0-3-3-/-5-\-3-0--|-
G-|-0-3-3-/-5-\-3-0--|-
D-|-x-0-0-/-3-\-0-x--|-
A-|-x-x-x-/-x-\-x-x--|-
E-|-3-3-3-/-5-\-3-3--|-

E: 

G-|-1-1-1-/-2-\-1-1--|-
D-|-0-2-2-/-3-\-1-0--|-
A-|-0-2-2-/-3-\-2-0--|-
E-|---0-0-/-0-\-0-0--|-


Прислал: Усомнившийся Мирошников


К списку песен
© 2007-2017 v.silvansky