Надо Мной

Куплет

D-|--2--------------|
A-|----3-2----------| x4
E-|-----------------|


G-|--1--------------|
D-|-----3-----------| x4
A-|--------2--------|
Am, C, Dm (1-x-0-2-3-x), Em


Припев
Am, C, Dm (1-x-0-2-3-x), Em


Прислал: Towniy
Надо Мной - аккордЫ


Надо Мной

Куплет

D-|--2--------------|
A-|----3-2----------| x4
E-|-----------------|


G-|--1--------------|
D-|-----3-----------| x4
A-|--------2--------|
Am, C, Dm (1-x-0-2-3-x), Em


Припев
Am, C, Dm (1-x-0-2-3-x), Em


Прислал: Towniy


К списку песен
© 2007-2017 v.silvansky