На дне.


Мелодия:

E-|---------------------------|---------------------|------------------------------------|-----------------------------|
H-|---------------------------|---------------------|------------------------------------|-----------------------------|
G-|----------------------7(6)-|---------------------|------------------------------------|-----------------------------|
D-|------------7-------5------|---------------------|-------------7----------------------|-----------------------------|
A-|----------6----6--5--------|----------6-------5--|-----------6-----------------(6)----|-----------------------------|
E-|---8-7--5------------------|-8--7--5----8-7-5----|--8--7---5-----12-10---8-7-5----(5)-|-5---4--8--7--12-10-13--8--4-|
     Су-е-та-а-а на дне-е-е,  Всё спе-шу-у-у о-о-пять. И теп-ло-о-о и свет-ло-о-о.        Тол-ько не-бо не-бо не дог-нать.
	 
В конце вот никак не могу посчитать в уме, сколько раз "Небо" толь 2 толи 3 ))), а специально не выслушивал.
	 
Аккомпанимент:
сходу получилось начало, первые строки (давно не пробовал, забыл точно) 2х (Dm, Am) толь наоборот (при том, что первые три ноты - C,H,A)

 в текстовом редакторе всё ровно, а вставил тут - вижу кривенько, наверное из-за того, что в браузере Calibri по умолчанию, надеюсь увидишь нормально.



Прислал: Anzu
На дне - аккордЫ


8-7-5--6-7-7-8___6-5--5-7-7-5
e______h_g_d_a___h____g_d_a_g
суета____________на дне

8-7-5--6--867-6-555
e______h__ehg-h-ehg
весь дрожу опять

8-7-5--6-7-7-8__6-5--5-7-7-8
e______h_g_d_a__h____g_d_a_e
и тепло_________и светло

6-5--5-4--8-7--12-10--13-13-13
h____e________________e__h__g
только небо небо небо не достать
v.2
8-7--7-6--6-5--5-3--6-5-6
a____d____g____h____h_g_d

тут основа, дальше сами импровизируйте
----------------------------------------------

суета на дне
весь дрожу опять
и тепло, и светло
только небо небо небо не достать

и только ты, звезда
всё спешишь, гореть
и светло, и тепло
только небо небо небо не пропеть

так и жду, и мне
не взлететь, не всплыть
и тепло, и светло
только небо небо небо не схватить

Прислал: luseven


К списку песен
© 2007-2017 v.silvansky